Videos & Tabs

Welcome to my NEW page featuring videos of Peterman stomp and pickup players.

If you would like to see your video here plase email me with a link to your youtube video and I will set it up on this page!!

 

A few players have asked me to tab the little ditty I play when demoing my stompoxes... so here it is:

-------------------
-------------------
--2-52--02--75-0-3-
-2-2---0-2-5-5-0-3-
0-----0---0--0-0-0-
-------------------

​repeat above until bored......

-------------------
-------------------
--12-9----7-5-0-2--
-9---9----7-5-0-2--
0----0---0--0---0--
-------------------

drop the G bass in when you feel it fits.....

Every time I play this it changes.... basically, its 3 finger picking, bassing on the A and fretting the two centre strings where ever there is a dot... :-)